PARTITIONS de Basse

Pour les musiciens et artistes du forum : Tous les sujets concernant la création et techniques sons et instruments... et aussi échanges, annonces, jam entres zicos
Avatar du membre
stephane
Picture's Disc
Messages : 791
Enregistré le : 11/01/05 02:05
Localisation : Bondy

PARTITIONS de Basse

Messagepar stephane » 17/08/05 19:27

de Mark King:
Je crois que certain bassiste ici l'aime bien.
http://www.forevernow.com/tablature.shtml

Marcus Miller:
http://www.jeffmaccora.com/transcriptions.html

500 partitions gratuites sur ce site allemand , cochez le "stil " 118 pour le funk:
Tower Of Power, Stevie Wonder, Randy Crawford, The Temptations...
http://www.electricbass.ch/songs/songs_overview.php

Avatar du membre
Wonder B
Bibliothèque Nationale
Messages : 18767
Enregistré le : 17/09/04 20:21
Localisation : Chantilly avec les bourrins

Messagepar Wonder B » 17/08/05 20:45

Beau lien!!!!!!!!!!!!!!!!! :grin: :grin: :grin: :grin:
Wonder B
Sworn to fun
Loyal to none

Avatar du membre
Rebel
Stand Convention
Messages : 1414
Enregistré le : 22/03/06 14:25

Messagepar Rebel » 01/06/07 21:21

C'est JOLI mais je ne sais pas LIRE :shock: Dommage !
:merci: quand même :twisted:
MARK KING & MARCUS quand même :twisted:
:headbang: :sym_yes: Maison Rozoff :sym_yes: :PDT_07: :PDT_09:

Avatar du membre
Theworldcry
Picture's Disc
Messages : 827
Enregistré le : 11/01/06 20:35
Localisation : Région Parisienne

Messagepar Theworldcry » 01/06/07 21:32

MERCI!
dorénavant je sais qu'il faut que j'apprenne à lire ma clef de Fa!!!

:twisted:
Let's Go...
-The World Cry-

Avatar du membre
Rebel
Stand Convention
Messages : 1414
Enregistré le : 22/03/06 14:25

Messagepar Rebel » 01/06/07 22:02

Pareil :twisted: mais ce n'est pas pour demain :wink:
:headbang: :sym_yes: Maison Rozoff :sym_yes: :PDT_07: :PDT_09:

Casper
Picture's Disc
Messages : 729
Enregistré le : 17/11/04 17:27
Localisation : SUD-EST

Messagepar Casper » 02/06/07 10:35

Il doit exister des sites avec tablatures pour basse, non ? Pour ceux qui ont oublié leur solfège :mrgreen:
"Remember James Brown, he opened the door for all of us"
Bootsy Collins 1990

Avatar du membre
ldesmarets
K7
Messages : 48
Enregistré le : 24/04/08 16:17
Localisation : Auray chez les breizh

Tabs Commodores

Messagepar ldesmarets » 26/11/08 21:15

:!:
Recherche désespérément tabs ou partition bass de "Funky situation" des Commodores!
Les funk tabs, guitar pro etc sont des choses rares .
Merci si vous avez des tuyaux

Nats

Avatar du membre
dafonk
Artiste Funkhomer
Messages : 3218
Enregistré le : 01/11/04 19:12
Contact :

Messagepar dafonk » 28/08/09 00:26

Comment jouer 'Hair' :

http://www.youtube.com/watch?v=7EwonPfOlwE

Très bien expliqué. Attention aux ampoules :lol:
Rather than reminisce I'm telling you this, it's time for a brand new scene !

Avatar du membre
djpats
K7
Messages : 45
Enregistré le : 13/08/09 22:10
Contact :

Messagepar djpats » 28/08/09 11:02

bon moi je suis pas musicien
mais j'ai trouvé ca j'y comprend rien mais vous peut etre c'est du chinois
ou de probabilité mathemathiques

Song: Play that Funky Music
Artist: The Commodores
Tuning: Regular (E, A, D, G)


Intro and Verse
G|------------------------------------------|
D|----2-0-2-----0h2------2-0-2-------0h2----|
A|-----------0h2------------------0h2-------|
E|-0------------------0---------------------|

G|----|
D|----|
A|----| Play this open note when the bit before the chorus starts.
E|-0--|

No bass in bit before chorus.

Pre Chorus
G|---------|
D|---------|
A|---------| straight into chorus from here
E|-0-1-2-3-|

Chorus
G|-------------------------------------|
D|---3-3----3h5------3-3-----3h5-------|
A|-------3h5--------------3h5----------|
E|---------------3-----------------3---|

G|--------------------------------------------------------------|
D|---------8-8---------------------------------2-0-2-----0h2----|
A|--------------7--5---7------------------------------0h2-------|
E|-3-5-6-------------7---7--5--7--5--3--5--3-0------------------|

Go onto verse again from here.

Outro (straight out of last chorus)
G|----------------------------------------|
D|----7-7----5h7------7-7-----5h7---------|
A|--------5h7--------------5h7------------|
E|-5---------------5----------------------|



Marcus Miller

Rampage bass tab

G||--5-------------x----5-----|--5-------------x----5h7h-5-|
D||--5-----------x---7-----7--|--5-------------------------|
A||------0--x-0---------------|------0--x-0--x---x---------|
E||---------------------------|----------------------------|



----------------x----------|----------------x----5-----|
--7------------------5---7-|--7-----------x---7-----7--|
------0--x-0--x---7--------|------0--x-0---------------|
---------------------------|---------------------------|



--5h7------------x---7h9---|--5h7------------x----7-----|
--5h7----------------7h9---|--5h7----------x---7-----7--|
-------0--x-0--x-----------|-------0--x-0---------------|
---------------------------|----------------------------|



--5-------------x----------|---------x-------x------x---||
--5------------------5h7---|-----------x----------------||
------0--x-0--x---x--------|--0----------x-x---x--x-----||
---------------------------|----------------------------||




Miller Marcus - Portrait Of Tracy


00:00)
|-5*-3*----------------------------/13--/13-11h139--11----9-9-9-----------|
|-------4*----5*-3*----------------------------------------------/9-/9-----|
|----------3*-------4*----5*-3*-----------------------------------------7--|
|----------------------3*-------4*-----------------------------------------|

4*----5*-4*----5*--------4*-4*----------------4*----5*-4*----5*--------4*-5*----|----------5*NbSb---|
|-------4*-3*----5*-3*-----------4*-5*----------------4*-3*----5*-3*-----------4*-4*----|----------5*NbSb---|
|-0-2-3----------3--------2=6*------3-------0---0-2-3----------3--------2=6*------4*----|-------------------|
|------------------------------0-------5*-----3--------------------------------------11-|--0--0-------------|

(00:38) 2x 1
|----14h16-14-12-119/11---10/11------14/16-|/16--14h1612----|----11----|
|o------------------------------12-13------o|-------------14--|----------|
|o-----------------------------------------o|-----------------|----------|
|-------------------------------------------|-----------------|----------|(00:54)

|---11-9---------/16-/16--11-9--------/16---11-11h12-11---16--12*f-14*f-16*f-12*f------12*f-----------14*f-11*h13*f-|
|--------9-11-13---------------12-13----------------------------------------------12*f------14*f-12*f---------------|
|-------------------------------------------------------------------------------------------------------------------|
|-------------------------------------------------------------------------------------------------------------------|
(01:13)
|---16---------------------16-----------------------------16-------------------------16-------------------------------|
|------16-------/12-11-------16-------11h12-11h12p11---------16-------/12-11-----------16-------12h14-11sh12p11-------|
|------------12--------14----------12----------------14------------12--------14-14-----------12--------------------14-|
|---------12--------------------12------------------------------12------------------------12--------------------------|
(01:27)
|--4*----------7*--------4*---------7*--------16------------------------------16------------16-21*f-|
|-----4*-------------------4*---------------------16-------11h12-11h12p11--------16-------14--------|
|--------7*-5*----4*----------7*-5*----4*----------------12----------------14-----------12-----------|
|--------------------7*-------------------7*----------12-----------------------------12--------------|
(01:41)

|-----------------------------------------------------|
|-----------------------------------------------------|
|-----------------------------------------------------|
|---8---8-8-8-7---7-7-7-6----x-0-6-6-x-7----3-2-1-7-5-|
(01:54)

|---5*---5*---7*------7*------5*------5*---------5*------4*|------4*-----4*---4*-------------|-----4*-----4*--|
|----------------9*------9*------5*------5*---5*------4*---|o-----4*-----4*------4*------5*-o|-----4*-----4*--|
|-------------------------------------------6-------6------|o-------------------------5*----o|----------------|
|-8----8----7--------7------6-------6----------------------|--4------4------3-------3--------|-4------4-------|
(02:25)
|----------14-16b----14----------------------------|14/16-14-12-119/11--10/11-------/16/16/16------16------16h17p16p14---|
|----14-16--------16----14-14p12t17p12h14t17p12h14-|--------------------------12-13------------------------------------17-|
|-16-----------------------------------------------|-----------------------------------------x-14----x-14-----------------|
|--------------------------------------------------|----------------------------------------------------------------------|
(02:41)
|-16h19-16-------------14----------------14h1611----14h16------------------x---x----x-----|
|-------------------14----16-16p14-12-13--------------------------------x--------------x---|
|----------14-15-17-------------------------------------------------------x---x--x-x-----x-|
|------------------------------------------------------------------------------------------|
(02:56)
|-----7-----------------------------------x-------9------------------------------x-----------7-------7---7-7-|
|-7h9---9-7-x-x-x-7-x-x-6------------------x-7h9---9-x-x-x-7-x-x-6h7-x-x-5h6-----7-----------7------7-----|
|--------------------------6tr7-5tr7-------------------------------------------x-----5h7----------0----------|
|------------------------------------0---------------------------------------------------0-0-----------------|
(03:12)
|
|-----x-----x--------------------------------9-11/12-9h11-9----------------------------------------------------5*---|
|---------------------------------------9h11----------------11-9-8-7----/9-9b-/7-7b-5-------5P-----------------7*---|
|-x-x---x-x---x--5h7-7--7-5------------------------------------------10---------------7-5------5h7-5-2--------------|
|---------------------------7-6-5-3b-0----------------------------------------------------7------------5-3-0-0----0-|
(03:23)
|-------------15B--7------------------------------------x---x-------------17B-7-------------------------------------------|
|-------14-----------8b-5-------5-----------------------------------14----------8b-5-------5------------------------------|
|-14h16----16-------------7p5-7---7p5h7p5---------------------14h16----16------------7p5-7---7p5h7p5----------------------|
|-----------------------------------------7-6-5-3h5-5-3---0------------------------------------------7-6-5-3/5-3/4p3-0-0--|

(03:36)
|-x---------------------x---x----x-------------24*f---x---x-----x-|
|---------14----24*f--x------------------14---------x-------------|
|---14h16----16-----------x--x-x---14h16----16----------x---x-x---|
|-----------------------------------------------------------------|
(03:44) | all tP | | all tP |
|----------------------------------------------------------------------10-9|
|-------12-12-12121212-12h14-12-10-------------------7-------------/12-----|
|-12h14----------------------------12-10-10-10101010---7-5-----------------|
|----------------------------------------------------------7-5-3-0---------|
(03:50)
|------------------------------------------------18-19-18-------------------------------------5*------4*-|
|---------------------------------------------------------19-18----------------------------5*------4*----|
|---------------------------------------------------------------19-----------------------5-------5-------|
|--8--8-8-8-7--7-7-7-6--6-6-6-7--7-7-7-8--8-8-8--------------------21-19--7-7-7-6--6-6-6-----------------|
(04:17)

|-------4*------4*---4*-------------|-----4*------4*|----------14-16b----14-------------------------------------------------|
|o---5*-6*---5*-6*------4*------5*-o|--5*-6*---5*-6*|----14-16--------16----14-14p12t17p12h14t17p12h14t17p12h14t17p12h14-12-|
|o---------------------------5*----o|---------------|-16--------------------------------------------------------------------|
|--4-------4-------3-------3--------|4-------4------|-----------------------------------------------------------------------|
(04:44)
|-------4*----5*-4*----5*--------4*-4*----------------4*----5*-4*----5*--------4*-5*----|
|-------4*-3*----5*-3*-----------4*-5*----------------4*-3*----5*-3*-----------4*-4*----|
|-0-2-3----------3--------2=6*------3-------0---0-2-3----------3--------2=6*------4*----|
|------------------------------0-------5*-----3--------------------------------------11-|
(5:00)
|--------------------4*-4*-----4*---------------4*---5*----------------9=13*--|
|-4*-------5*--------4*-5*--------3*----4*-5*---4*---5*----------------9=13*--|
|----3*-------2=6*------3------------4*--------------4*-----------------------|
|-------5*---------0------5*------------------0----0----11---------0-0--------|



From : funky president
Album : Reality
Artist : James Brown


Verse Bridge Chorus1
q q e e e q q e e e | e e e e e e e e| q q q e s s|
G --------------------------------|------------------------|-----------------|-
D -------14-12-14--------16-17-18-|----14----13----12----11|-----------------|-
A --------------------------------|------------------------|-----------------|-
E -12--------------12-------------|-12----11----10-----9---|--8--8--8--8--6-8|-
r r


Chorus2 Chorus3
e e e e s s s s| e e e e s s s s
G -----------------------|------------------------
D ------------10--8-----8|--------------8--6-----6
A -8-10--8-10-------10---|--6--8--6--8--------8---
E -----------------------|------------------------

Arrangement:

Verse 3x Verse 3x Verse 3x
Bridge 1x Bridge 1x Bridge 1x
Verse 3x Verse 3x Verse 3x
Bridge 1x Bridge 1x Bridge 1x
Verse 3x Verse 3x Verse 3x
Bridge 1x Bridge 1x Bridge 1x
Chorus1 4x Chorus1 4x Verse 6x
Chorus2 2x Chorus2 2x (..fade out..)
Chorus3 2x Chorus3 2x
www.djpats.com
www.facebook.com/djpats.funk
Les hommes que les passions peuvent le plus émouvoir sont capables de goûter le plus de douceur en cette vie.
[René Descartes]

Avatar du membre
ldesmarets
K7
Messages : 48
Enregistré le : 24/04/08 16:17
Localisation : Auray chez les breizh

Messagepar ldesmarets » 28/08/09 12:20

Et bien merci on a va essayé ça...

Avatar du membre
dafonk
Artiste Funkhomer
Messages : 3218
Enregistré le : 01/11/04 19:12
Contact :

Messagepar dafonk » 30/10/09 12:07

djpats a écrit :bon moi je suis pas musicien
mais j'ai trouvé ca j'y comprend rien mais vous peut etre c'est du chinois
ou de probabilité mathemathiques

Intro and Verse
G|------------------------------------------|
D|----2-0-2-----0h2------2-0-2-------0h2----|
A|-----------0h2------------------0h2-------|
E|-0------------------0---------------------|


Ce sont des tablatures, les lignes représentent les cordes de la basse et les numéros, les cases du manche :wink:
Rather than reminisce I'm telling you this, it's time for a brand new scene !

Avatar du membre
christian.
Stand Convention
Messages : 2113
Enregistré le : 17/09/04 23:51
Localisation : Palaiseau 91
Contact :

Messagepar christian. » 10/02/10 11:13

sympa la tabs des Commodores , je vais essayer ça .

FUNKy style .

Avatar du membre
Wonder B
Bibliothèque Nationale
Messages : 18767
Enregistré le : 17/09/04 20:21
Localisation : Chantilly avec les bourrins

Messagepar Wonder B » 26/08/11 05:14

Pour ceux que çà intéresse toujours y'a un petit suisse (oui je sais mais c'est lui qui le fait lui même le jeu de mots!) qui est né en 1989 (ouille le coup dans la tronche!!!) et qui n'a commencé la basse qu'en 2006... Faut aller voir parce qu'il fait très mal...
Bon mais les partoches vous me dites... OUI ben il joue et met les partoches sur Graham Central Station I Believe IN yOU
http://www.youtube.com/user/DavidSinRoc ... VmP_3aeeKg

Sinon faut aller voir tout ce qu'il a posté sur Youtube... Genre...
http://www.youtube.com/watch?v=CHjBxL-aW4E&feature=fvsr

L'enfoiré a un son énorme mais en plus il se permet de revisiter la célèbre ligne de basse de TM Stevens avec la ligne en slap (3'43") et après (4'19") je suis sûr que TM aurait la banane en voyant çà!

Ce qu'il fait sur Frankenstein (version Marcus Miller) est tout aussi confondant... jouer 6'44" en faisant chaque note de MM ben çà fait mal!
http://www.youtube.com/watch?v=UIiyFpRbSlM
Wonder B

Sworn to fun

Loyal to none

[dori3l]
Picture's Disc
Messages : 797
Enregistré le : 18/09/04 00:27

Messagepar [dori3l] » 27/08/11 01:57

Y a aussi ça :

http://www.youtube.com/watch?v=7ndp5_2L ... ure=fvwrel


Le salopard j'ai envie de dire...

Avatar du membre
Wonder B
Bibliothèque Nationale
Messages : 18767
Enregistré le : 17/09/04 20:21
Localisation : Chantilly avec les bourrins

Messagepar Wonder B » 27/08/11 12:04

AH LE PETIT ENFOIRE!!!!!!!!!!!! J'arrive pas à croire qu'il n'a que 5 ans de pratique derrière lui... C'est le même que dans mes liens au dessus...

J'adore son commentaire en dessous :

"P.S: Pour ceux qui demanderont, c'est du scotch rouge que j'ai sur le doigt, car j'ai une cloque dessus et à chaque fois que mon doigt tape contre le pickguard ça fait SUPER mal :'("

Et son impro sur le break est juste énorme!!!!!

Le petit enfoiré de Suisse! LOOOOOOOOOOOOOOOOOOOOOOL
Wonder B

Sworn to fun

Loyal to none


Retourner vers « Techniques Du Funk & Petites Annonces »

Qui est en ligne

Utilisateurs parcourant ce forum : Aucun utilisateur enregistré et 2 invités